Acordes: Ven Aqui – Bunkers

el

Temazo. Las guitarras suenan geniales y la canción es buenísima. Los acordes para practicar con el videito a continuación.

BUNKERS - VEN AQUI
Acordes introducción: Rem - Solm - Do - Rem - Solm - Do

(los acordes se tocan siempre
como esta abajo)

Cuerda:1  2  3  4  5  6
Rem:   5  6  7  7  5  5
Solm:  10 11 12 12 10 10
Do:    8  8  9  10 10 8

|-----------------------------|
|-----------------------------|
|-----------------------------| (x2)
|-----------------------------|
|-5-5-5--7-8----4-4--5-7------|
|-----------------------------|

|------------------------------------------------------------|
|------------------------------------------------------------|
|------------------------------------------------------------|
|------------------------------------------------------------|
|--5-5--7-8---5-5--7-8-----3-3--5-7------3-3--5-7------------|
|------------------------------------------------------------|

se repite la intro dos veces

Primer parrafo

Rem                                                         Solm   Do
Si no hay nadie a quien quieras hablar por esta noche llamame  (woh oh oh)
Rem                                            Solm    Do
no te quedes niun segundo tras mi puerta otra vez (wo oh oh)

Coro:

Punteo que acompaña al coro                     X2

|------------------------------------------|
|------------------------------------------|
|------------------------------------------|
|------------------------------------------|
|--3/8--5---3/8--5---3-8--10-12--10-7--3-5-|
|------------------------------------------|

Rem                               Solm   Do                      Rem
ven aqui, no sabes cuanto te espere las noches que no me dormi
                           Solm    Do                           Rem
no sabes que es morir despues de estar borracho y solo por ti

Despues del coro sigue el punteo del principio

segundo parrafo (se repiten los acordes del primero)

no hay muchas razones para hablar de lo que pueda suceder esta vez
se que te has cansado de planear siemrpe tu vida sin querer

Coro:
se repite el punteo del coro anterior

Rem                               Solm   Do                      Rem
ven aqui, no sabes cuanto te espere las noches que no me dormi
                           Solm    Do                        Fa
no sabes que es morir despues de haber vivido por ti alguna vez

Rem             Solm  Do             Fa
y no saber que hacer antes del amanecer
Rem           Solm  Do
y yo no se perder   (eh eh eeehh)

SOLO:

|----------------------------------x-x-x-x---x-x-x-|
|----------------------------------x-6-6-6---6-6-x-|
|----------------------------------5-3-3-3---3-3-x-|
|--------3-------------3-----------x-5-5-5-5-5-5-5-|
|--5-5-7---5----5-5-7---5----5-5-7-x-x-x-x---x-x-x-|
|----------------------------------x-x-x-x---x-x-x-|

|-----------8-8----------------------13------13-10----|
|-8-8-6---6-----6-8-8----8---8---6-----10-10-------10-|
|-------7-------------7----7---7----------------------|
|-----------------------------------------------------|
|-----------------------------------------------------|
|-----------------------------------------------------|

|-10-8----8-5----5-8----8------------------|
|------10------8---------------------------|
|------------------------------------------|
|------------------------------------------|
|------------------------------------------|
|------------------------------------------|

despues viene el coro...

( Transcripción de theboy)

Anuncios

Responder

Introduce tus datos o haz clic en un icono para iniciar sesión:

Logo de WordPress.com

Estás comentando usando tu cuenta de WordPress.com. Cerrar sesión / Cambiar )

Imagen de Twitter

Estás comentando usando tu cuenta de Twitter. Cerrar sesión / Cambiar )

Foto de Facebook

Estás comentando usando tu cuenta de Facebook. Cerrar sesión / Cambiar )

Google+ photo

Estás comentando usando tu cuenta de Google+. Cerrar sesión / Cambiar )

Conectando a %s